ISO-10303-21;
HEADER;
FILE_DESCRIPTION (( 'STEP AP203' ),
    '1' );
FILE_NAME ('REV-21-2510.STEP',
    '2022-08-16T17:26:05',
    ( '' ),
    ( '' ),
    'SwSTEP 2.0',
    'SolidWorks 2022',
    '' );
FILE_SCHEMA (( 'CONFIG_CONTROL_DESIGN' ));
ENDSEC;

DATA;
#1 = EDGE_CURVE ( 'NONE', #59, #102, #83, .T. ) ;
#2 = APPROVAL_STATUS ( 'not_yet_approved' ) ;
#3 = ORIENTED_EDGE ( 'NONE', *, *, #1, .F. ) ;
#4 = CLOSED_SHELL ( 'NONE', ( #82, #242, #234, #145, #27, #9 ) ) ;
#5 = ORIENTED_EDGE ( 'NONE', *, *, #188, .T. ) ;
#6 = CARTESIAN_POINT ( 'NONE',  ( 18.00000000000000000, 0.000000000000000000, 0.3125000000000000000 ) ) ;
#7 = ORIENTED_EDGE ( 'NONE', *, *, #56, .T. ) ;
#8 = AXIS2_PLACEMENT_3D ( 'NONE', #127, #126, #73 ) ;
#9 = ADVANCED_FACE ( 'NONE', ( #162 ), #45, .F. ) ;
#10 = CARTESIAN_POINT ( 'NONE',  ( -18.00000000000000000, 4.592425496802575451E-17, -0.3750000000000000555 ) ) ;
#11 = LENGTH_MEASURE_WITH_UNIT ( LENGTH_MEASURE( 0.02539999999999999897 ), #106 );
#12 = DESIGN_CONTEXT ( 'detailed design', #246, 'design' ) ;
#13 = PLANE ( 'NONE',  #91 ) ;
#14 = CARTESIAN_POINT ( 'NONE',  ( 18.00000000000000000, 3.827021247335478926E-17, -0.3125000000000000000 ) ) ;
#15 = COORDINATED_UNIVERSAL_TIME_OFFSET ( 6, 0, .BEHIND. ) ;
#16 = ORIENTED_EDGE ( 'NONE', *, *, #99, .T. ) ;
#17 =( GEOMETRIC_REPRESENTATION_CONTEXT ( 3 ) GLOBAL_UNCERTAINTY_ASSIGNED_CONTEXT ( ( #33 ) ) GLOBAL_UNIT_ASSIGNED_CONTEXT ( ( #172, #168, #95 ) ) REPRESENTATION_CONTEXT ( 'NONE', 'WORKASPACE' ) );
#18 = CALENDAR_DATE ( 2022, 16, 8 ) ;
#19 = EDGE_CURVE ( 'NONE', #59, #201, #147, .T. ) ;
#20 = APPROVAL_ROLE ( '' ) ;
#21 = APPROVAL_PERSON_ORGANIZATION ( #136, #115, #153 ) ;
#22 = PERSON_AND_ORGANIZATION_ROLE ( 'classification_officer' ) ;
#23 = DIRECTION ( 'NONE',  ( 0.000000000000000000, 0.000000000000000000, -1.000000000000000000 ) ) ;
#24 = EDGE_LOOP ( 'NONE', ( #133, #197, #7, #122 ) ) ;
#25 = ORIENTED_EDGE ( 'NONE', *, *, #138, .T. ) ;
#26 = DIRECTION ( 'NONE',  ( 0.000000000000000000, 0.000000000000000000, -1.000000000000000000 ) ) ;
#27 = ADVANCED_FACE ( 'NONE', ( #180 ), #64, .T. ) ;
#28 = FACE_BOUND ( 'NONE', #113, .T. ) ;
#29 = DIRECTION ( 'NONE',  ( 1.000000000000000000, 0.000000000000000000, 0.000000000000000000 ) ) ;
#30 = DIRECTION ( 'NONE',  ( 1.000000000000000000, 0.000000000000000000, 0.000000000000000000 ) ) ;
#31 = CARTESIAN_POINT ( 'NONE',  ( 18.00000000000000000, 3.827021247335478926E-17, -0.3125000000000000000 ) ) ;
#32 = CARTESIAN_POINT ( 'NONE',  ( -18.00000000000000000, 3.827021247335478926E-17, -0.3125000000000000000 ) ) ;
#33 = UNCERTAINTY_MEASURE_WITH_UNIT (LENGTH_MEASURE( 1.000000000000000082E-05 ), #172, 'distance_accuracy_value', 'NONE');
#34 = APPROVAL_DATE_TIME ( #135, #229 ) ;
#35 = EDGE_CURVE ( 'NONE', #139, #221, #60, .T. ) ;
#36 = MECHANICAL_CONTEXT ( 'NONE', #249, 'mechanical' ) ;
#37 = AXIS2_PLACEMENT_3D ( 'NONE', #236, #160, #163 ) ;
#38 = DATE_TIME_ROLE ( 'classification_date' ) ;
#39 = CC_DESIGN_DATE_AND_TIME_ASSIGNMENT ( #176, #38, ( #54 ) ) ;
#40 = DATE_TIME_ROLE ( 'creation_date' ) ;
#41 = ORIENTED_EDGE ( 'NONE', *, *, #93, .T. ) ;
#42 = CARTESIAN_POINT ( 'NONE',  ( 18.00000000000000000, 0.000000000000000000, 0.000000000000000000 ) ) ;
#43 = CC_DESIGN_PERSON_AND_ORGANIZATION_ASSIGNMENT ( #131, #80, ( #108 ) ) ;
#44 = ORIENTED_EDGE ( 'NONE', *, *, #165, .F. ) ;
#45 = CYLINDRICAL_SURFACE ( 'NONE', #37, 0.3125000000000000000 ) ;
#46 = LOCAL_TIME ( 12, 26, 5.000000000000000000, #228 ) ;
#47 = SHAPE_DEFINITION_REPRESENTATION ( #169, #161 ) ;
#48 = DIRECTION ( 'NONE',  ( 0.000000000000000000, 0.000000000000000000, -1.000000000000000000 ) ) ;
#49 = CARTESIAN_POINT ( 'NONE',  ( 18.00000000000000000, 0.000000000000000000, 0.3750000000000000555 ) ) ;
#50 = DIRECTION ( 'NONE',  ( 0.000000000000000000, 0.000000000000000000, -1.000000000000000000 ) ) ;
#51 = CARTESIAN_POINT ( 'NONE',  ( 18.00000000000000000, 0.000000000000000000, 0.3750000000000000555 ) ) ;
#52 = CARTESIAN_POINT ( 'NONE',  ( -18.00000000000000000, 0.000000000000000000, 0.3750000000000000555 ) ) ;
#53 = AXIS2_PLACEMENT_3D ( 'NONE', #206, #69, #50 ) ;
#54 = SECURITY_CLASSIFICATION ( '', '', #208 ) ;
#55 = CALENDAR_DATE ( 2022, 16, 8 ) ;
#56 = EDGE_CURVE ( 'NONE', #102, #178, #184, .T. ) ;
#57 = DATE_AND_TIME ( #192, #157 ) ;
#58 = PERSON_AND_ORGANIZATION_ROLE ( 'design_owner' ) ;
#59 = VERTEX_POINT ( 'NONE', #120 ) ;
#60 = CIRCLE ( 'NONE', #209, 0.3125000000000000000 ) ;
#61 = PERSON ( 'UNSPECIFIED', 'UNSPECIFIED', 'UNSPECIFIED', ('UNSPECIFIED'), ('UNSPECIFIED'), ('UNSPECIFIED') ) ;
#62 = CALENDAR_DATE ( 2022, 16, 8 ) ;
#63 = VERTEX_POINT ( 'NONE', #177 ) ;
#64 = CYLINDRICAL_SURFACE ( 'NONE', #123, 0.3750000000000000555 ) ;
#65 = EDGE_CURVE ( 'NONE', #221, #63, #67, .T. ) ;
#66 = ORIENTED_EDGE ( 'NONE', *, *, #215, .T. ) ;
#67 = LINE ( 'NONE', #6, #118 ) ;
#68 = EDGE_LOOP ( 'NONE', ( #111, #194, #216, #144 ) ) ;
#69 = DIRECTION ( 'NONE',  ( 1.000000000000000000, 0.000000000000000000, 0.000000000000000000 ) ) ;
#70 = AXIS2_PLACEMENT_3D ( 'NONE', #225, #204, #224 ) ;
#71 = DIRECTION ( 'NONE',  ( -1.000000000000000000, -0.000000000000000000, -0.000000000000000000 ) ) ;
#72 = APPROVAL_PERSON_ORGANIZATION ( #174, #229, #20 ) ;
#73 = DIRECTION ( 'NONE',  ( 0.000000000000000000, 0.000000000000000000, -1.000000000000000000 ) ) ;
#74 = DIRECTION ( 'NONE',  ( 0.000000000000000000, 0.000000000000000000, -1.000000000000000000 ) ) ;
#75 = PERSON_AND_ORGANIZATION ( #61, #191 ) ;
#76 = CARTESIAN_POINT ( 'NONE',  ( 0.000000000000000000, 0.000000000000000000, 0.000000000000000000 ) ) ;
#77 = ORIENTED_EDGE ( 'NONE', *, *, #56, .F. ) ;
#78 = APPROVAL_STATUS ( 'not_yet_approved' ) ;
#79 = VECTOR ( 'NONE', #71, 39.37007874015748143 ) ;
#80 = PERSON_AND_ORGANIZATION_ROLE ( 'design_supplier' ) ;
#81 = EDGE_LOOP ( 'NONE', ( #3, #44, #25, #66 ) ) ;
#82 = ADVANCED_FACE ( 'NONE', ( #141 ), #241, .F. ) ;
#83 = LINE ( 'NONE', #218, #142 ) ;
#84 = DIRECTION ( 'NONE',  ( 0.000000000000000000, 0.000000000000000000, 1.000000000000000000 ) ) ;
#85 = CC_DESIGN_APPROVAL ( #154, ( #207 ) ) ;
#86 = AXIS2_PLACEMENT_3D ( 'NONE', #181, #239, #23 ) ;
#87 = CC_DESIGN_APPROVAL ( #229, ( #108 ) ) ;
#88 = CARTESIAN_POINT ( 'NONE',  ( 18.00000000000000000, 0.000000000000000000, 0.000000000000000000 ) ) ;
#89 = DIRECTION ( 'NONE',  ( 0.000000000000000000, 0.000000000000000000, -1.000000000000000000 ) ) ;
#90 = DIMENSIONAL_EXPONENTS ( 1.000000000000000000, 0.000000000000000000, 0.000000000000000000, 0.000000000000000000, 0.000000000000000000, 0.000000000000000000, 0.000000000000000000 ) ;
#91 = AXIS2_PLACEMENT_3D ( 'NONE', #152, #29, #89 ) ;
#92 = DIRECTION ( 'NONE',  ( -1.000000000000000000, -0.000000000000000000, -0.000000000000000000 ) ) ;
#93 = EDGE_CURVE ( 'NONE', #139, #217, #222, .T. ) ;
#94 = DIRECTION ( 'NONE',  ( 1.000000000000000000, 0.000000000000000000, 0.000000000000000000 ) ) ;
#95 =( NAMED_UNIT ( * ) SI_UNIT ( $, .STERADIAN. ) SOLID_ANGLE_UNIT ( ) );
#96 = ORIENTED_EDGE ( 'NONE', *, *, #165, .T. ) ;
#97 = CALENDAR_DATE ( 2022, 16, 8 ) ;
#98 = VECTOR ( 'NONE', #182, 39.37007874015748143 ) ;
#99 = EDGE_CURVE ( 'NONE', #221, #139, #101, .T. ) ;
#100 = DIRECTION ( 'NONE',  ( -1.000000000000000000, -0.000000000000000000, -0.000000000000000000 ) ) ;
#101 = CIRCLE ( 'NONE', #128, 0.3125000000000000000 ) ;
#102 = VERTEX_POINT ( 'NONE', #10 ) ;
#103 = DIRECTION ( 'NONE',  ( -1.000000000000000000, -0.000000000000000000, -0.000000000000000000 ) ) ;
#104 = AXIS2_PLACEMENT_3D ( 'NONE', #109, #173, #245 ) ;
#105 = DIRECTION ( 'NONE',  ( 1.000000000000000000, 0.000000000000000000, 0.000000000000000000 ) ) ;
#106 =( LENGTH_UNIT ( ) NAMED_UNIT ( * ) SI_UNIT ( $, .METRE. ) );
#107 = DIRECTION ( 'NONE',  ( 0.000000000000000000, 0.000000000000000000, -1.000000000000000000 ) ) ;
#108 = PRODUCT_DEFINITION_FORMATION_WITH_SPECIFIED_SOURCE ( 'ANY', '', #187, .NOT_KNOWN. ) ;
#109 = CARTESIAN_POINT ( 'NONE',  ( 18.00000000000000000, 0.000000000000000000, 0.000000000000000000 ) ) ;
#110 = DIRECTION ( 'NONE',  ( 0.000000000000000000, 0.000000000000000000, 1.000000000000000000 ) ) ;
#111 = ORIENTED_EDGE ( 'NONE', *, *, #93, .F. ) ;
#112 = DIRECTION ( 'NONE',  ( 1.000000000000000000, 0.000000000000000000, 0.000000000000000000 ) ) ;
#113 = EDGE_LOOP ( 'NONE', ( #213, #5 ) ) ;
#114 = APPLICATION_PROTOCOL_DEFINITION ( 'international standard', 'config_control_design', 1994, #246 ) ;
#115 = APPROVAL ( #2, 'UNSPECIFIED' ) ;
#116 = APPROVAL_ROLE ( '' ) ;
#117 = CC_DESIGN_APPROVAL ( #115, ( #54 ) ) ;
#118 = VECTOR ( 'NONE', #199, 39.37007874015748143 ) ;
#119 = CC_DESIGN_PERSON_AND_ORGANIZATION_ASSIGNMENT ( #247, #232, ( #207 ) ) ;
#120 = CARTESIAN_POINT ( 'NONE',  ( 18.00000000000000000, 4.592425496802575451E-17, -0.3750000000000000555 ) ) ;
#121 = ORIENTED_EDGE ( 'NONE', *, *, #124, .F. ) ;
#122 = ORIENTED_EDGE ( 'NONE', *, *, #138, .F. ) ;
#123 = AXIS2_PLACEMENT_3D ( 'NONE', #88, #103, #84 ) ;
#124 = EDGE_CURVE ( 'NONE', #63, #217, #235, .T. ) ;
#125 = PLANE ( 'NONE',  #104 ) ;
#126 = DIRECTION ( 'NONE',  ( 1.000000000000000000, 0.000000000000000000, 0.000000000000000000 ) ) ;
#127 = CARTESIAN_POINT ( 'NONE',  ( -18.00000000000000000, 0.000000000000000000, 0.000000000000000000 ) ) ;
#128 = AXIS2_PLACEMENT_3D ( 'NONE', #223, #30, #74 ) ;
#129 = DATE_AND_TIME ( #55, #46 ) ;
#130 = CC_DESIGN_DATE_AND_TIME_ASSIGNMENT ( #156, #40, ( #207 ) ) ;
#131 = PERSON_AND_ORGANIZATION ( #61, #191 ) ;
#132 = AXIS2_PLACEMENT_3D ( 'NONE', #171, #94, #107 ) ;
#133 = ORIENTED_EDGE ( 'NONE', *, *, #19, .F. ) ;
#134 = LOCAL_TIME ( 12, 26, 5.000000000000000000, #233 ) ;
#135 = DATE_AND_TIME ( #18, #227 ) ;
#136 = PERSON_AND_ORGANIZATION ( #61, #191 ) ;
#137 = ORIENTED_EDGE ( 'NONE', *, *, #19, .T. ) ;
#138 = EDGE_CURVE ( 'NONE', #201, #178, #151, .T. ) ;
#139 = VERTEX_POINT ( 'NONE', #31 ) ;
#140 = EDGE_LOOP ( 'NONE', ( #210, #240 ) ) ;
#141 = FACE_OUTER_BOUND ( 'NONE', #196, .T. ) ;
#142 = VECTOR ( 'NONE', #100, 39.37007874015748143 ) ;
#143 = CC_DESIGN_PERSON_AND_ORGANIZATION_ASSIGNMENT ( #211, #22, ( #54 ) ) ;
#144 = ORIENTED_EDGE ( 'NONE', *, *, #188, .F. ) ;
#145 = ADVANCED_FACE ( 'NONE', ( #244, #28 ), #13, .F. ) ;
#146 = CYLINDRICAL_SURFACE ( 'NONE', #219, 0.3750000000000000555 ) ;
#147 = CIRCLE ( 'NONE', #179, 0.3750000000000000555 ) ;
#148 = APPROVAL_PERSON_ORGANIZATION ( #155, #154, #116 ) ;
#149 = FACE_BOUND ( 'NONE', #140, .T. ) ;
#150 = MANIFOLD_SOLID_BREP ( 'Boss-Extrude1', #4 ) ;
#151 = LINE ( 'NONE', #49, #79 ) ;
#152 = CARTESIAN_POINT ( 'NONE',  ( -18.00000000000000000, 0.000000000000000000, 0.000000000000000000 ) ) ;
#153 = APPROVAL_ROLE ( '' ) ;
#154 = APPROVAL ( #190, 'UNSPECIFIED' ) ;
#155 = PERSON_AND_ORGANIZATION ( #61, #191 ) ;
#156 = DATE_AND_TIME ( #97, #170 ) ;
#157 = LOCAL_TIME ( 12, 26, 5.000000000000000000, #15 ) ;
#158 = ORIENTED_EDGE ( 'NONE', *, *, #65, .F. ) ;
#159 = PRODUCT_RELATED_PRODUCT_CATEGORY ( 'detail', '', ( #187 ) ) ;
#160 = DIRECTION ( 'NONE',  ( -1.000000000000000000, -0.000000000000000000, -0.000000000000000000 ) ) ;
#161 = ADVANCED_BREP_SHAPE_REPRESENTATION ( 'REV-21-2510', ( #150, #226 ), #17 ) ;
#162 = FACE_OUTER_BOUND ( 'NONE', #68, .T. ) ;
#163 = DIRECTION ( 'NONE',  ( 0.000000000000000000, 0.000000000000000000, 1.000000000000000000 ) ) ;
#164 = CIRCLE ( 'NONE', #53, 0.3125000000000000000 ) ;
#165 = EDGE_CURVE ( 'NONE', #201, #59, #198, .T. ) ;
#166 = DIRECTION ( 'NONE',  ( 1.000000000000000000, 0.000000000000000000, 0.000000000000000000 ) ) ;
#167 = DIRECTION ( 'NONE',  ( 0.000000000000000000, 0.000000000000000000, -1.000000000000000000 ) ) ;
#168 =( NAMED_UNIT ( * ) PLANE_ANGLE_UNIT ( ) SI_UNIT ( $, .RADIAN. ) );
#169 = PRODUCT_DEFINITION_SHAPE ( 'NONE', 'NONE',  #207 ) ;
#170 = LOCAL_TIME ( 12, 26, 5.000000000000000000, #252 ) ;
#171 = CARTESIAN_POINT ( 'NONE',  ( -18.00000000000000000, 0.000000000000000000, 0.000000000000000000 ) ) ;
#172 =( CONVERSION_BASED_UNIT ( 'INCH', #11 ) LENGTH_UNIT ( ) NAMED_UNIT ( #90 ) );
#173 = DIRECTION ( 'NONE',  ( 1.000000000000000000, 0.000000000000000000, 0.000000000000000000 ) ) ;
#174 = PERSON_AND_ORGANIZATION ( #61, #191 ) ;
#175 = PERSON_AND_ORGANIZATION_ROLE ( 'creator' ) ;
#176 = DATE_AND_TIME ( #62, #134 ) ;
#177 = CARTESIAN_POINT ( 'NONE',  ( -18.00000000000000000, 0.000000000000000000, 0.3125000000000000000 ) ) ;
#178 = VERTEX_POINT ( 'NONE', #52 ) ;
#179 = AXIS2_PLACEMENT_3D ( 'NONE', #42, #237, #26 ) ;
#180 = FACE_OUTER_BOUND ( 'NONE', #81, .T. ) ;
#181 = CARTESIAN_POINT ( 'NONE',  ( -18.00000000000000000, 0.000000000000000000, 0.000000000000000000 ) ) ;
#182 = DIRECTION ( 'NONE',  ( -1.000000000000000000, -0.000000000000000000, -0.000000000000000000 ) ) ;
#183 = FACE_OUTER_BOUND ( 'NONE', #24, .T. ) ;
#184 = CIRCLE ( 'NONE', #86, 0.3750000000000000555 ) ;
#185 = CARTESIAN_POINT ( 'NONE',  ( 18.00000000000000000, 0.000000000000000000, 0.3125000000000000000 ) ) ;
#186 = CARTESIAN_POINT ( 'NONE',  ( 18.00000000000000000, 0.000000000000000000, 0.000000000000000000 ) ) ;
#187 = PRODUCT ( 'REV-21-2510', 'REV-21-2510', '', ( #36 ) ) ;
#188 = EDGE_CURVE ( 'NONE', #217, #63, #164, .T. ) ;
#189 = PERSON_AND_ORGANIZATION ( #61, #191 ) ;
#190 = APPROVAL_STATUS ( 'not_yet_approved' ) ;
#191 = ORGANIZATION ( 'UNSPECIFIED', 'UNSPECIFIED', '' ) ;
#192 = CALENDAR_DATE ( 2022, 16, 8 ) ;
#193 = ORIENTED_EDGE ( 'NONE', *, *, #215, .F. ) ;
#194 = ORIENTED_EDGE ( 'NONE', *, *, #35, .T. ) ;
#195 = CC_DESIGN_PERSON_AND_ORGANIZATION_ASSIGNMENT ( #189, #58, ( #187 ) ) ;
#196 = EDGE_LOOP ( 'NONE', ( #16, #41, #121, #158 ) ) ;
#197 = ORIENTED_EDGE ( 'NONE', *, *, #1, .T. ) ;
#198 = CIRCLE ( 'NONE', #214, 0.3750000000000000555 ) ;
#199 = DIRECTION ( 'NONE',  ( -1.000000000000000000, -0.000000000000000000, -0.000000000000000000 ) ) ;
#200 = CC_DESIGN_PERSON_AND_ORGANIZATION_ASSIGNMENT ( #75, #175, ( #108 ) ) ;
#201 = VERTEX_POINT ( 'NONE', #51 ) ;
#202 = DIRECTION ( 'NONE',  ( 0.000000000000000000, 0.000000000000000000, 1.000000000000000000 ) ) ;
#203 = CARTESIAN_POINT ( 'NONE',  ( 18.00000000000000000, 0.000000000000000000, 0.000000000000000000 ) ) ;
#204 = DIRECTION ( 'NONE',  ( -1.000000000000000000, -0.000000000000000000, -0.000000000000000000 ) ) ;
#205 = FACE_OUTER_BOUND ( 'NONE', #250, .T. ) ;
#206 = CARTESIAN_POINT ( 'NONE',  ( -18.00000000000000000, 0.000000000000000000, 0.000000000000000000 ) ) ;
#207 = PRODUCT_DEFINITION ( 'UNKNOWN', '', #108, #12 ) ;
#208 = SECURITY_CLASSIFICATION_LEVEL ( 'unclassified' ) ;
#209 = AXIS2_PLACEMENT_3D ( 'NONE', #238, #166, #48 ) ;
#210 = ORIENTED_EDGE ( 'NONE', *, *, #99, .F. ) ;
#211 = PERSON_AND_ORGANIZATION ( #61, #191 ) ;
#212 = APPROVAL_DATE_TIME ( #57, #154 ) ;
#213 = ORIENTED_EDGE ( 'NONE', *, *, #124, .T. ) ;
#214 = AXIS2_PLACEMENT_3D ( 'NONE', #186, #105, #167 ) ;
#215 = EDGE_CURVE ( 'NONE', #178, #102, #231, .T. ) ;
#216 = ORIENTED_EDGE ( 'NONE', *, *, #65, .T. ) ;
#217 = VERTEX_POINT ( 'NONE', #32 ) ;
#218 = CARTESIAN_POINT ( 'NONE',  ( 18.00000000000000000, 4.592425496802575451E-17, -0.3750000000000000555 ) ) ;
#219 = AXIS2_PLACEMENT_3D ( 'NONE', #203, #92, #202 ) ;
#220 = APPROVAL_DATE_TIME ( #129, #115 ) ;
#221 = VERTEX_POINT ( 'NONE', #185 ) ;
#222 = LINE ( 'NONE', #14, #98 ) ;
#223 = CARTESIAN_POINT ( 'NONE',  ( 18.00000000000000000, 0.000000000000000000, 0.000000000000000000 ) ) ;
#224 = DIRECTION ( 'NONE',  ( 0.000000000000000000, 0.000000000000000000, 1.000000000000000000 ) ) ;
#225 = CARTESIAN_POINT ( 'NONE',  ( 18.00000000000000000, 0.000000000000000000, 0.000000000000000000 ) ) ;
#226 = AXIS2_PLACEMENT_3D ( 'NONE', #76, #110, #112 ) ;
#227 = LOCAL_TIME ( 12, 26, 5.000000000000000000, #251 ) ;
#228 = COORDINATED_UNIVERSAL_TIME_OFFSET ( 6, 0, .BEHIND. ) ;
#229 = APPROVAL ( #78, 'UNSPECIFIED' ) ;
#230 = APPLICATION_PROTOCOL_DEFINITION ( 'international standard', 'config_control_design', 1994, #249 ) ;
#231 = CIRCLE ( 'NONE', #8, 0.3750000000000000555 ) ;
#232 = PERSON_AND_ORGANIZATION_ROLE ( 'creator' ) ;
#233 = COORDINATED_UNIVERSAL_TIME_OFFSET ( 6, 0, .BEHIND. ) ;
#234 = ADVANCED_FACE ( 'NONE', ( #205, #149 ), #125, .T. ) ;
#235 = CIRCLE ( 'NONE', #132, 0.3125000000000000000 ) ;
#236 = CARTESIAN_POINT ( 'NONE',  ( 18.00000000000000000, 0.000000000000000000, 0.000000000000000000 ) ) ;
#237 = DIRECTION ( 'NONE',  ( 1.000000000000000000, 0.000000000000000000, 0.000000000000000000 ) ) ;
#238 = CARTESIAN_POINT ( 'NONE',  ( 18.00000000000000000, 0.000000000000000000, 0.000000000000000000 ) ) ;
#239 = DIRECTION ( 'NONE',  ( 1.000000000000000000, 0.000000000000000000, 0.000000000000000000 ) ) ;
#240 = ORIENTED_EDGE ( 'NONE', *, *, #35, .F. ) ;
#241 = CYLINDRICAL_SURFACE ( 'NONE', #70, 0.3125000000000000000 ) ;
#242 = ADVANCED_FACE ( 'NONE', ( #183 ), #146, .T. ) ;
#243 = CC_DESIGN_SECURITY_CLASSIFICATION ( #54, ( #108 ) ) ;
#244 = FACE_OUTER_BOUND ( 'NONE', #248, .T. ) ;
#245 = DIRECTION ( 'NONE',  ( 0.000000000000000000, 0.000000000000000000, -1.000000000000000000 ) ) ;
#246 = APPLICATION_CONTEXT ( 'configuration controlled 3d designs of mechanical parts and assemblies' ) ;
#247 = PERSON_AND_ORGANIZATION ( #61, #191 ) ;
#248 = EDGE_LOOP ( 'NONE', ( #193, #77 ) ) ;
#249 = APPLICATION_CONTEXT ( 'configuration controlled 3d designs of mechanical parts and assemblies' ) ;
#250 = EDGE_LOOP ( 'NONE', ( #96, #137 ) ) ;
#251 = COORDINATED_UNIVERSAL_TIME_OFFSET ( 6, 0, .BEHIND. ) ;
#252 = COORDINATED_UNIVERSAL_TIME_OFFSET ( 6, 0, .BEHIND. ) ;
ENDSEC;
END-ISO-10303-21;
